  0
SECTION
  2
HEADER
  9
$ACADVER
  1
AC1015
  9
$ACADMAINTVER
 70
     6
  9
$DWGCODEPAGE
  3
ANSI_1254
  9
$INSBASE
 10
0.0
 20
0.0
 30
0.0
  9
$EXTMIN
 10
0.0
 20
0.0
 30
0.0
  9
$EXTMAX
 10
279.4
 20
215.9
 30
0.0
  9
$LIMMIN
 10
0.0
 20
0.0
  9
$LIMMAX
 10
279.4
 20
215.9
  9
$ORTHOMODE
 70
     0
  9
$REGENMODE
 70
     1
  9
$FILLMODE
 70
     1
  9
$QTEXTMODE
 70
     0
  9
$MIRRTEXT
 70
     1
  9
$LTSCALE
 40
1.0
  9
$ATTMODE
 70
     1
  9
$TEXTSIZE
 40
3.5
  9
$TRACEWID
 40
1.0
  9
$TEXTSTYLE
  7
Standard
  9
$CLAYER
  8
0
  9
$CELTYPE
  6
ByLayer
  9
$CECOLOR
 62
   256
  9
$CELTSCALE
 40
1.0
  9
$DISPSILH
 70
     0
  9
$DIMSCALE
 40
1.0
  9
$DIMASZ
 40
3.5
  9
$DIMEXO
 40
1.0
  9
$DIMDLI
 40
3.75
  9
$DIMRND
 40
0.0
  9
$DIMDLE
 40
0.0
  9
$DIMEXE
 40
1.0
  9
$DIMTP
 40
0.0
  9
$DIMTM
 40
0.0
  9
$DIMTXT
 40
3.5
  9
$DIMCEN
 40
2.5
  9
$DIMTSZ
 40
0.0
  9
$DIMTOL
 70
     0
  9
$DIMLIM
 70
     0
  9
$DIMTIH
 70
     1
  9
$DIMTOH
 70
     1
  9
$DIMSE1
 70
     0
  9
$DIMSE2
 70
     0
  9
$DIMTAD
 70
     1
  9
$DIMZIN
 70
     0
  9
$DIMBLK
  1

  9
$DIMASO
 70
     1
  9
$DIMSHO
 70
     1
  9
$DIMPOST
  1

  9
$DIMAPOST
  1

  9
$DIMALT
 70
     0
  9
$DIMALTD
 70
     3
  9
$DIMALTF
 40
0.0393700787
  9
$DIMLFAC
 40
1.0
  9
$DIMTOFL
 70
     1
  9
$DIMTVP
 40
0.0
  9
$DIMTIX
 70
     0
  9
$DIMSOXD
 70
     0
  9
$DIMSAH
 70
     0
  9
$DIMBLK1
  1

  9
$DIMBLK2
  1

  9
$DIMSTYLE
  2
ISO-25
  9
$DIMCLRD
 70
     0
  9
$DIMCLRE
 70
     0
  9
$DIMCLRT
 70
     0
  9
$DIMTFAC
 40
1.0
  9
$DIMGAP
 40
1.524
  9
$DIMJUST
 70
     0
  9
$DIMSD1
 70
     0
  9
$DIMSD2
 70
     0
  9
$DIMTOLJ
 70
     0
  9
$DIMTZIN
 70
     0
  9
$DIMALTZ
 70
     0
  9
$DIMALTTZ
 70
     0
  9
$DIMUPT
 70
     0
  9
$DIMDEC
 70
     2
  9
$DIMTDEC
 70
     2
  9
$DIMALTU
 70
     2
  9
$DIMALTTD
 70
     3
  9
$DIMTXSTY
  7
Standard
  9
$DIMAUNIT
 70
     0
  9
$DIMADEC
 70
     2
  9
$DIMALTRND
 40
0.0
  9
$DIMAZIN
 70
     0
  9
$DIMDSEP
 70
    44
  9
$DIMATFIT
 70
     3
  9
$DIMFRAC
 70
     0
  9
$DIMLDRBLK
  1

  9
$DIMLUNIT
 70
     2
  9
$DIMLWD
 70
    -2
  9
$DIMLWE
 70
    -2
  9
$DIMTMOVE
 70
     0
  9
$LUNITS
 70
     2
  9
$LUPREC
 70
     2
  9
$SKETCHINC
 40
1.0
  9
$FILLETRAD
 40
10.0
  9
$AUNITS
 70
     0
  9
$AUPREC
 70
     2
  9
$MENU
  1
.
  9
$ELEVATION
 40
0.0
  9
$PELEVATION
 40
0.0
  9
$THICKNESS
 40
0.0
  9
$LIMCHECK
 70
     0
  9
$CHAMFERA
 40
0.0
  9
$CHAMFERB
 40
0.0
  9
$CHAMFERC
 40
0.0
  9
$CHAMFERD
 40
0.0
  9
$SKPOLY
 70
     0
  9
$TDCREATE
 40
2459935.700565012
  9
$TDUCREATE
 40
2459935.575565012
  9
$TDUPDATE
 40
2459935.700565185
  9
$TDUUPDATE
 40
2459935.575565185
  9
$TDINDWG
 40
0.0000000116
  9
$TDUSRTIMER
 40
0.0000000116
  9
$USRTIMER
 70
     1
  9
$ANGBASE
 50
0.0
  9
$ANGDIR
 70
     0
  9
$PDMODE
 70
     0
  9
$PDSIZE
 40
-1.0
  9
$PLINEWID
 40
0.0
  9
$SPLFRAME
 70
     0
  9
$SPLINETYPE
 70
     6
  9
$SPLINESEGS
 70
     8
  9
$HANDSEED
  5
D2
  9
$SURFTAB1
 70
     6
  9
$SURFTAB2
 70
     6
  9
$SURFTYPE
 70
     6
  9
$SURFU
 70
     6
  9
$SURFV
 70
     6
  9
$UCSBASE
  2

  9
$UCSNAME
  2

  9
$UCSORG
 10
0.0
 20
0.0
 30
0.0
  9
$UCSXDIR
 10
1.0
 20
0.0
 30
0.0
  9
$UCSYDIR
 10
0.0
 20
1.0
 30
0.0
  9
$UCSORTHOREF
  2

  9
$UCSORTHOVIEW
 70
     0
  9
$UCSORGTOP
 10
0.0
 20
0.0
 30
0.0
  9
$UCSORGBOTTOM
 10
0.0
 20
0.0
 30
0.0
  9
$UCSORGLEFT
 10
0.0
 20
0.0
 30
0.0
  9
$UCSORGRIGHT
 10
0.0
 20
0.0
 30
0.0
  9
$UCSORGFRONT
 10
0.0
 20
0.0
 30
0.0
  9
$UCSORGBACK
 10
0.0
 20
0.0
 30
0.0
  9
$PUCSBASE
  2

  9
$PUCSNAME
  2

  9
$PUCSORG
 10
0.0
 20
0.0
 30
0.0
  9
$PUCSXDIR
 10
1.0
 20
0.0
 30
0.0
  9
$PUCSYDIR
 10
0.0
 20
1.0
 30
0.0
  9
$PUCSORTHOREF
  2

  9
$PUCSORTHOVIEW
 70
     0
  9
$PUCSORGTOP
 10
0.0
 20
0.0
 30
0.0
  9
$PUCSORGBOTTOM
 10
0.0
 20
0.0
 30
0.0
  9
$PUCSORGLEFT
 10
0.0
 20
0.0
 30
0.0
  9
$PUCSORGRIGHT
 10
0.0
 20
0.0
 30
0.0
  9
$PUCSORGFRONT
 10
0.0
 20
0.0
 30
0.0
  9
$PUCSORGBACK
 10
0.0
 20
0.0
 30
0.0
  9
$USERI1
 70
     0
  9
$USERI2
 70
     0
  9
$USERI3
 70
     0
  9
$USERI4
 70
     0
  9
$USERI5
 70
     0
  9
$USERR1
 40
0.0
  9
$USERR2
 40
0.0
  9
$USERR3
 40
0.0
  9
$USERR4
 40
0.0
  9
$USERR5
 40
0.0
  9
$WORLDVIEW
 70
     1
  9
$SHADEDGE
 70
     3
  9
$SHADEDIF
 70
    70
  9
$TILEMODE
 70
     1
  9
$MAXACTVP
 70
    64
  9
$PINSBASE
 10
0.0
 20
0.0
 30
0.0
  9
$PLIMCHECK
 70
     0
  9
$PEXTMIN
 10
1.0000000000E+20
 20
1.0000000000E+20
 30
1.0000000000E+20
  9
$PEXTMAX
 10
-1.0000000000E+20
 20
-1.0000000000E+20
 30
-1.0000000000E+20
  9
$PLIMMIN
 10
0.0
 20
0.0
  9
$PLIMMAX
 10
420.0
 20
297.0
  9
$UNITMODE
 70
     0
  9
$VISRETAIN
 70
     1
  9
$PLINEGEN
 70
     0
  9
$PSLTSCALE
 70
     1
  9
$TREEDEPTH
 70
  3020
  9
$CMLSTYLE
  2
Standard
  9
$CMLJUST
 70
     0
  9
$CMLSCALE
 40
20.0
  9
$PROXYGRAPHICS
 70
     1
  9
$MEASUREMENT
 70
     1
  9
$CELWEIGHT
370
    -1
  9
$ENDCAPS
280
     0
  9
$JOINSTYLE
280
     0
  9
$LWDISPLAY
290
     1
  9
$INSUNITS
 70
     4
  9
$HYPERLINKBASE
  1

  9
$STYLESHEET
  1

  9
$XEDIT
290
     1
  9
$CEPSNTYPE
380
     0
  9
$PSTYLEMODE
290
     1
  9
$FINGERPRINTGUID
  2
{506c7005-8ab8-442b-9333-bb7e908bee86}
  9
$VERSIONGUID
  2
{FAEB1C32-E019-11D5-929B-00C0DF256EC4}
  9
$EXTNAMES
290
     1
  9
$PSVPSCALE
 40
0.0
  9
$OLESTARTUP
290
     0
  0
ENDSEC
  0
SECTION
  2
CLASSES
  0
CLASS
  1
ACDBDICTIONARYWDFLT
  2
AcDbDictionaryWithDefault
  3
ObjectDBX Classes
 90
        0
280
     0
281
     0
  0
CLASS
  1
VISUALSTYLE
  2
AcDbVisualStyle
  3
ObjectDBX Classes
 90
     4095
280
     0
281
     0
  0
CLASS
  1
MATERIAL
  2
AcDbMaterial
  3
ObjectDBX Classes
 90
     1153
280
     0
281
     0
  0
CLASS
  1
SCALE
  2
AcDbScale
  3
ObjectDBX Classes
 90
     1153
280
     0
281
     0
  0
CLASS
  1
TABLESTYLE
  2
AcDbTableStyle
  3
ObjectDBX Classes
 90
     4095
280
     0
281
     0
  0
CLASS
  1
MLEADERSTYLE
  2
AcDbMLeaderStyle
  3
ACDB_MLEADERSTYLE_CLASS
 90
     4095
280
     0
281
     0
  0
CLASS
  1
SUN
  2
AcDbSun
  3
SCENEOE
 90
     1153
280
     0
281
     0
  0
CLASS
  1
ACDBPLACEHOLDER
  2
AcDbPlaceHolder
  3
ObjectDBX Classes
 90
        0
280
     0
281
     0
  0
CLASS
  1
LAYOUT
  2
AcDbLayout
  3
ObjectDBX Classes
 90
        0
280
     0
281
     0
  0
ENDSEC
  0
SECTION
  2
TABLES
  0
TABLE
  2
VPORT
  5
8
330
0
100
AcDbSymbolTable
 70
     1
  0
VPORT
  5
29
330
8
100
AcDbSymbolTableRecord
100
AcDbViewportTableRecord
  2
*Active
 70
     0
 10
0.0
 20
0.0
 11
1.0
 21
1.0
 12
139.7
 22
107.95
 13
0.0
 23
0.0
 14
10.0
 24
10.0
 15
10.0
 25
10.0
 16
0.0
 26
0.0
 36
1.0
 17
0.0
 27
0.0
 37
0.0
 40
215.9
 41
1.2941176471
 42
50.0
 43
0.0
 44
0.0
 50
0.0
 51
0.0
 71
     0
 72
  2000
 73
     1
 74
     3
 75
     0
 76
     0
 77
     0
 78
     0
281
     0
 65
     1
110
0.0
120
0.0
130
0.0
111
1.0
121
0.0
131
0.0
112
0.0
122
1.0
132
0.0
 79
     0
146
0.0
  0
ENDTAB
  0
TABLE
  2
LTYPE
  5
5
330
0
100
AcDbSymbolTable
 70
     6
  0
LTYPE
  5
14
330
5
100
AcDbSymbolTableRecord
100
AcDbLinetypeTableRecord
  2
ByBlock
 70
     0
  3

 72
    65
 73
     0
 40
0.0
  0
LTYPE
  5
15
330
5
100
AcDbSymbolTableRecord
100
AcDbLinetypeTableRecord
  2
ByLayer
 70
     0
  3

 72
    65
 73
     0
 40
0.0
  0
LTYPE
  5
16
330
5
100
AcDbSymbolTableRecord
100
AcDbLinetypeTableRecord
  2
Continuous
 70
     0
  3
Solid line
 72
    65
 73
     0
 40
0.0
  0
LTYPE
  5
6E
330
5
100
AcDbSymbolTableRecord
100
AcDbLinetypeTableRecord
  2
HIDDEN
 70
     0
  3
Hidden __ __ __ __ __ __ __ __ __ __ __ __ __ __
 72
    65
 73
     2
 40
1.905
 49
1.27
 74
     0
 49
-0.635
 74
     0
  0
LTYPE
  5
6F
330
5
100
AcDbSymbolTableRecord
100
AcDbLinetypeTableRecord
  2
PHANTOM
 70
     0
  3
Phantom ______  __  __  ______  __  __  ______
 72
    65
 73
     6
 40
12.7
 49
6.35
 74
     0
 49
-1.27
 74
     0
 49
1.27
 74
     0
 49
-1.27
 74
     0
 49
1.27
 74
     0
 49
-1.27
 74
     0
  0
LTYPE
  5
70
330
5
100
AcDbSymbolTableRecord
100
AcDbLinetypeTableRecord
  2
CENTER
 70
     0
  3
Center ____ _ ____ _ ____ _ ____ _ ____ _ ____
 72
    65
 73
     4
 40
10.16
 49
6.35
 74
     0
 49
-1.27
 74
     0
 49
1.27
 74
     0
 49
-1.27
 74
     0
  0
LTYPE
  5
71
330
5
100
AcDbSymbolTableRecord
100
AcDbLinetypeTableRecord
  2
CENTERX2
 70
     0
  3
Center (2x) ________  __  ________  __  _____
 72
    65
 73
     4
 40
20.32
 49
12.7
 74
     0
 49
-2.54
 74
     0
 49
2.54
 74
     0
 49
-2.54
 74
     0
  0
LTYPE
  5
72
330
5
100
AcDbSymbolTableRecord
100
AcDbLinetypeTableRecord
  2
DOT2
 70
     0
  3
Dot (.5x) ........................................
 72
    65
 73
     2
 40
0.635
 49
0.0
 74
     0
 49
-0.635
 74
     0
  0
ENDTAB
  0
TABLE
  2
LAYER
  5
2
330
0
100
AcDbSymbolTable
 70
    17
  0
LAYER
  5
10
330
2
100
AcDbSymbolTableRecord
100
AcDbLayerTableRecord
  2
0
 70
     0
 62
     7
  6
Continuous
370
    -3
390
F
  0
LAYER
  5
73
330
2
100
AcDbSymbolTableRecord
100
AcDbLayerTableRecord
  2
FORMAT
 70
     0
 62
     7
  6
Continuous
370
    -3
390
F
  0
LAYER
  5
74
330
2
100
AcDbSymbolTableRecord
100
AcDbLayerTableRecord
  2
YARDIMCI_GEOMETRI
 70
     0
 62
    -6
  6
Continuous
290
     0
370
    -3
390
F
  0
LAYER
  5
75
330
2
100
AcDbSymbolTableRecord
100
AcDbLayerTableRecord
  2
SAYFA_CERCEVESI
 70
     0
 62
     7
  6
Continuous
370
    25
390
F
  0
LAYER
  5
76
330
2
100
AcDbSymbolTableRecord
100
AcDbLayerTableRecord
  2
ANTET
 70
     0
 62
     7
  6
Continuous
370
    -3
390
F
  0
LAYER
  5
77
330
2
100
AcDbSymbolTableRecord
100
AcDbLayerTableRecord
  2
OLCU
 70
     0
 62
   150
  6
Continuous
370
    -3
390
F
  0
LAYER
  5
78
330
2
100
AcDbSymbolTableRecord
100
AcDbLayerTableRecord
  2
METIN
 70
     0
 62
    96
  6
Continuous
370
    -3
390
F
  0
LAYER
  5
79
330
2
100
AcDbSymbolTableRecord
100
AcDbLayerTableRecord
  2
BALON
 70
     0
 62
     5
  6
Continuous
370
    -3
390
F
  0
LAYER
  5
7A
330
2
100
AcDbSymbolTableRecord
100
AcDbLayerTableRecord
  2
VURGU
 70
     0
 62
     7
  6
Continuous
370
    -3
390
F
  0
LAYER
  5
7B
330
2
100
AcDbSymbolTableRecord
100
AcDbLayerTableRecord
  2
SILIK
 70
     0
 62
     7
  6
Continuous
370
    -3
390
F
  0
LAYER
  5
7C
330
2
100
AcDbSymbolTableRecord
100
AcDbLayerTableRecord
  2
MODEL
 70
     0
 62
     7
  6
Continuous
370
    -3
390
F
  0
LAYER
  5
7D
330
2
100
AcDbSymbolTableRecord
100
AcDbLayerTableRecord
  2
DETAYLANDıRMA
 70
     0
 62
   190
  6
Continuous
370
    -3
390
F
  0
LAYER
  5
7E
330
2
100
AcDbSymbolTableRecord
100
AcDbLayerTableRecord
  2
TOLERANS
 70
     0
 62
   230
  6
Continuous
370
    -3
390
F
  0
LAYER
  5
7F
330
2
100
AcDbSymbolTableRecord
100
AcDbLayerTableRecord
  2
MERKEZ_CIZGILERI
 70
     0
 62
    30
  6
Continuous
370
    -3
390
F
  0
LAYER
  5
80
330
2
100
AcDbSymbolTableRecord
100
AcDbLayerTableRecord
  2
KESIT-DETAY_CIZGILERI
 70
     0
 62
     7
  6
Continuous
370
    -3
390
F
  0
LAYER
  5
81
330
2
100
AcDbSymbolTableRecord
100
AcDbLayerTableRecord
  2
\U+041E\U+0421\U+0415\U+0412\U+042B\U+0415
 70
     0
 62
     7
  6
Continuous
370
    -3
390
F
  0
LAYER
  5
82
330
2
100
AcDbSymbolTableRecord
100
AcDbLayerTableRecord
  2
\U+0412\U+041E\U+0414\U+042F\U+041D\U+042B\U+0415_\U+0417\U+041D\U+0410\U+041A\U+0418
 70
     0
 62
    11
  6
Continuous
370
    -3
390
F
  0
ENDTAB
  0
TABLE
  2
STYLE
  5
3
330
0
100
AcDbSymbolTable
 70
     1
  0
STYLE
  5
11
330
3
100
AcDbSymbolTableRecord
100
AcDbTextStyleTableRecord
  2
Standard
 70
     0
 40
0.0
 41
1.0
 50
0.0
 71
     0
 42
3.5
  3
txt
  4

  0
ENDTAB
  0
TABLE
  2
VIEW
  5
6
330
0
100
AcDbSymbolTable
 70
     0
  0
ENDTAB
  0
TABLE
  2
UCS
  5
7
330
0
100
AcDbSymbolTable
 70
     0
  0
ENDTAB
  0
TABLE
  2
APPID
  5
9
330
0
100
AcDbSymbolTable
 70
     1
  0
APPID
  5
12
330
9
100
AcDbSymbolTableRecord
100
AcDbRegAppTableRecord
  2
ACAD
 70
     0
  0
ENDTAB
  0
TABLE
  2
DIMSTYLE
  5
A
330
0
100
AcDbSymbolTable
 70
     1
100
AcDbDimStyleTable
  0
DIMSTYLE
105
27
330
A
100
AcDbSymbolTableRecord
100
AcDbDimStyleTableRecord
  2
ISO-25
 70
     0
 41
2.5
 42
0.625
 43
3.75
 44
1.25
 73
     0
 74
     0
 77
     1
 78
     8
140
2.5
141
2.5
143
0.0393700787
147
0.625
171
     3
172
     1
178
     0
271
     2
272
     2
274
     3
278
    44
283
     0
284
     8
340
11
  0
ENDTAB
  0
TABLE
  2
BLOCK_RECORD
  5
1
330
0
100
AcDbSymbolTable
 70
     3
  0
BLOCK_RECORD
  5
1F
330
1
100
AcDbSymbolTableRecord
100
AcDbBlockTableRecord
  2
*Model_Space
340
22
  0
BLOCK_RECORD
  5
1B
330
1
100
AcDbSymbolTableRecord
100
AcDbBlockTableRecord
  2
*Paper_Space
340
1E
  0
BLOCK_RECORD
  5
23
330
1
100
AcDbSymbolTableRecord
100
AcDbBlockTableRecord
  2
*Paper_Space0
340
26
  0
BLOCK_RECORD
  5
88
330
1
100
AcDbSymbolTableRecord
100
AcDbBlockTableRecord
  2
SW_CENTERMARKSYMBOL_0
340
0
102
{BLKREFS
331
93
102
}
  0
BLOCK_RECORD
  5
BB
330
1
100
AcDbSymbolTableRecord
100
AcDbBlockTableRecord
  2
SW_CENTERMARKSYMBOL_1
340
0
102
{BLKREFS
331
C6
102
}
  0
ENDTAB
  0
ENDSEC
  0
SECTION
  2
BLOCKS
  0
BLOCK
  5
20
330
1F
100
AcDbEntity
  8
0
100
AcDbBlockBegin
  2
*Model_Space
 70
     0
 10
0.0
 20
0.0
 30
0.0
  3
*Model_Space
  1

  0
ENDBLK
  5
21
330
1F
100
AcDbEntity
  8
0
100
AcDbBlockEnd
  0
BLOCK
  5
1C
330
1B
100
AcDbEntity
 67
     1
  8
0
100
AcDbBlockBegin
  2
*Paper_Space
 70
     0
 10
0.0
 20
0.0
 30
0.0
  3
*Paper_Space
  1

  0
ENDBLK
  5
1D
330
1B
100
AcDbEntity
 67
     1
  8
0
100
AcDbBlockEnd
  0
BLOCK
  5
24
330
23
100
AcDbEntity
  8
0
100
AcDbBlockBegin
  2
*Paper_Space0
 70
     0
 10
0.0
 20
0.0
 30
0.0
  3
*Paper_Space0
  1

  0
ENDBLK
  5
25
330
23
100
AcDbEntity
  8
0
100
AcDbBlockEnd
  0
BLOCK
  5
89
330
88
100
AcDbEntity
  8
0
100
AcDbBlockBegin
  2
SW_CENTERMARKSYMBOL_0
 70
     0
 10
0.0
 20
0.0
 30
0.0
  3
SW_CENTERMARKSYMBOL_0
  1

  0
LINE
  5
8B
330
88
100
AcDbEntity
  8
FORMAT
 62
     0
100
AcDbLine
 10
0.0
 20
0.0
 30
0.0
 11
0.0
 21
2.5
 31
0.0
  0
LINE
  5
8C
330
88
100
AcDbEntity
  8
FORMAT
 62
     0
100
AcDbLine
 10
0.0
 20
0.0
 30
0.0
 11
-2.5
 21
0.0
 31
0.0
  0
LINE
  5
8D
330
88
100
AcDbEntity
  8
FORMAT
 62
     0
100
AcDbLine
 10
0.0
 20
0.0
 30
0.0
 11
0.0
 21
-2.5
 31
0.0
  0
LINE
  5
8E
330
88
100
AcDbEntity
  8
FORMAT
 62
     0
100
AcDbLine
 10
0.0
 20
0.0
 30
0.0
 11
2.5
 21
0.0
 31
0.0
  0
LINE
  5
8F
330
88
100
AcDbEntity
  8
FORMAT
 62
     0
100
AcDbLine
 10
0.0
 20
5.0
 30
0.0
 11
0.0
 21
115.0
 31
0.0
  0
LINE
  5
90
330
88
100
AcDbEntity
  8
FORMAT
 62
     0
100
AcDbLine
 10
-5.0
 20
0.0
 30
0.0
 11
-115.0
 21
0.0
 31
0.0
  0
LINE
  5
91
330
88
100
AcDbEntity
  8
FORMAT
 62
     0
100
AcDbLine
 10
0.0
 20
-5.0
 30
0.0
 11
0.0
 21
-115.0
 31
0.0
  0
LINE
  5
92
330
88
100
AcDbEntity
  8
FORMAT
 62
     0
100
AcDbLine
 10
5.0
 20
0.0
 30
0.0
 11
115.0
 21
0.0
 31
0.0
  0
ENDBLK
  5
8A
330
88
100
AcDbEntity
  8
0
100
AcDbBlockEnd
  0
BLOCK
  5
BC
330
BB
100
AcDbEntity
  8
0
100
AcDbBlockBegin
  2
SW_CENTERMARKSYMBOL_1
 70
     0
 10
0.0
 20
0.0
 30
0.0
  3
SW_CENTERMARKSYMBOL_1
  1

  0
LINE
  5
BE
330
BB
100
AcDbEntity
  8
FORMAT
 62
     0
100
AcDbLine
 10
0.0
 20
0.0
 30
0.0
 11
0.0
 21
2.5
 31
0.0
  0
LINE
  5
BF
330
BB
100
AcDbEntity
  8
FORMAT
 62
     0
100
AcDbLine
 10
0.0
 20
0.0
 30
0.0
 11
-2.5
 21
0.0
 31
0.0
  0
LINE
  5
C0
330
BB
100
AcDbEntity
  8
FORMAT
 62
     0
100
AcDbLine
 10
0.0
 20
0.0
 30
0.0
 11
0.0
 21
-2.5
 31
0.0
  0
LINE
  5
C1
330
BB
100
AcDbEntity
  8
FORMAT
 62
     0
100
AcDbLine
 10
0.0
 20
0.0
 30
0.0
 11
2.5
 21
0.0
 31
0.0
  0
LINE
  5
C2
330
BB
100
AcDbEntity
  8
FORMAT
 62
     0
100
AcDbLine
 10
0.0
 20
5.0
 30
0.0
 11
0.0
 21
115.0
 31
0.0
  0
LINE
  5
C3
330
BB
100
AcDbEntity
  8
FORMAT
 62
     0
100
AcDbLine
 10
-5.0
 20
0.0
 30
0.0
 11
-115.0
 21
0.0
 31
0.0
  0
LINE
  5
C4
330
BB
100
AcDbEntity
  8
FORMAT
 62
     0
100
AcDbLine
 10
0.0
 20
-5.0
 30
0.0
 11
0.0
 21
-115.0
 31
0.0
  0
LINE
  5
C5
330
BB
100
AcDbEntity
  8
FORMAT
 62
     0
100
AcDbLine
 10
5.0
 20
0.0
 30
0.0
 11
115.0
 21
0.0
 31
0.0
  0
ENDBLK
  5
BD
330
BB
100
AcDbEntity
  8
0
100
AcDbBlockEnd
  0
ENDSEC
  0
SECTION
  2
ENTITIES
  0
LINE
  5
83
330
1F
100
AcDbEntity
  8
0
  6
Continuous
 62
     7
370
    25
100
AcDbLine
 10
61.3553085785
 20
1.7093166849
 30
0.0
 11
321.3553085785
 21
1.7093166849
 31
0.0
  0
LINE
  5
84
330
1F
100
AcDbEntity
  8
0
  6
Continuous
 62
     7
370
    25
100
AcDbLine
 10
321.3553085785
 20
226.7093166849
 30
0.0
 11
61.3553085785
 21
226.7093166849
 31
0.0
  0
CIRCLE
  5
85
330
1F
100
AcDbEntity
  8
0
  6
Continuous
 62
     7
370
    25
100
AcDbCircle
 10
61.3553085785
 20
114.2093166849
 30
0.0
 40
99.1
  0
CIRCLE
  5
86
330
1F
100
AcDbEntity
  8
0
  6
Continuous
 62
     7
370
    25
100
AcDbCircle
 10
61.3553085785
 20
114.2093166849
 30
0.0
 40
112.5
  0
LINE
  5
87
330
1F
100
AcDbEntity
  8
0
  6
Continuous
 62
     7
370
    25
100
AcDbLine
 10
321.3553085785
 20
226.7093166849
 30
0.0
 11
321.3553085785
 21
1.7093166849
 31
0.0
  0
INSERT
  5
93
330
1F
100
AcDbEntity
  8
FORMAT
100
AcDbBlockReference
  2
SW_CENTERMARKSYMBOL_0
 10
61.3553085785
 20
114.2093166849
 30
0.0
  0
LINE
  5
94
330
1F
100
AcDbEntity
  8
0
  6
Continuous
 62
     7
370
    25
100
AcDbLine
 10
173.8553085785
 20
784.8844544094
 30
0.0
 11
173.8553085785
 21
935.8844544094
 31
0.0
  0
LINE
  5
95
330
1F
100
AcDbEntity
  8
0
  6
Continuous
 62
     7
370
    25
100
AcDbLine
 10
173.8553085785
 20
408.8844544094
 30
0.0
 11
173.8553085785
 21
559.8844544094
 31
0.0
  0
LINE
  5
96
330
1F
100
AcDbEntity
  8
0
  6
Continuous
 62
     7
370
    25
100
AcDbLine
 10
-51.1446914215
 20
935.8844544094
 30
0.0
 11
-51.1446914215
 21
408.8844544094
 31
0.0
  0
LINE
  5
97
330
1F
100
AcDbEntity
  8
0
  6
Continuous
 62
     7
370
    25
100
AcDbLine
 10
173.8553085785
 20
559.8844544094
 30
0.0
 11
321.3553085785
 21
559.8844544094
 31
0.0
  0
LINE
  5
98
330
1F
100
AcDbEntity
  8
0
  6
Continuous
 62
     7
370
    25
100
AcDbLine
 10
321.3553085785
 20
784.8844544094
 30
0.0
 11
173.8553085785
 21
784.8844544094
 31
0.0
  0
LINE
  5
99
330
1F
100
AcDbEntity
  8
0
  6
Continuous
 62
     7
370
    25
100
AcDbLine
 10
173.8553085785
 20
784.8844544094
 30
0.0
 11
61.3553085785
 21
672.3844544094
 31
0.0
  0
LINE
  5
9A
330
1F
100
AcDbEntity
  8
0
  6
Continuous
 62
     7
370
    25
100
AcDbLine
 10
61.3553085785
 20
672.3844544094
 30
0.0
 11
173.8553085785
 21
559.8844544094
 31
0.0
  0
LINE
  5
9B
330
1F
100
AcDbEntity
  8
0
  6
Continuous
 62
     7
370
    25
100
AcDbLine
 10
-51.1446914215
 20
935.8844544094
 30
0.0
 11
173.8553085785
 21
935.8844544094
 31
0.0
  0
LINE
  5
9C
330
1F
100
AcDbEntity
  8
0
  6
Continuous
 62
     7
370
    25
100
AcDbLine
 10
-51.1446914215
 20
408.8844544094
 30
0.0
 11
173.8553085785
 21
408.8844544094
 31
0.0
  0
LINE
  5
9D
330
1F
100
AcDbEntity
  8
0
  6
Continuous
 62
     7
370
    25
100
AcDbLine
 10
321.3553085785
 20
784.8844544094
 30
0.0
 11
321.3553085785
 21
559.8844544094
 31
0.0
  0
LINE
  5
9E
330
1F
100
AcDbEntity
  8
0
  6
Continuous
 62
     7
370
    25
100
AcDbLine
 10
814.5806433694
 20
1.7093166849
 30
0.0
 11
1078.0806433694
 21
1.7093166849
 31
0.0
  0
LINE
  5
9F
330
1F
100
AcDbEntity
  8
0
  6
Continuous
 62
     7
370
    25
100
AcDbLine
 10
551.0806433694
 20
1.7093166849
 30
0.0
 11
814.5806433694
 21
1.7093166849
 31
0.0
  0
LINE
  5
A0
330
1F
100
AcDbEntity
  8
0
  6
Continuous
 62
     7
370
    25
100
AcDbLine
 10
814.5806433694
 20
226.7093166849
 30
0.0
 11
551.0806433694
 21
226.7093166849
 31
0.0
  0
LINE
  5
A1
330
1F
100
AcDbEntity
  8
0
  6
Continuous
 62
     7
370
    25
100
AcDbLine
 10
1078.0806433694
 20
226.7093166849
 30
0.0
 11
814.5806433694
 21
226.7093166849
 31
0.0
  0
LINE
  5
A2
330
1F
100
AcDbEntity
  8
0
  6
Continuous
 62
     7
370
    25
100
AcDbLine
 10
1078.0806433694
 20
226.7093166849
 30
0.0
 11
1078.0806433694
 21
1.7093166849
 31
0.0
  0
LINE
  5
A3
330
1F
100
AcDbEntity
  8
0
  6
Continuous
 62
     7
370
    25
100
AcDbLine
 10
551.0806433694
 20
226.7093166849
 30
0.0
 11
551.0806433694
 21
1.7093166849
 31
0.0
  0
LINE
  5
A4
330
1F
100
AcDbEntity
  8
0
  6
Continuous
 62
     7
370
    25
100
AcDbLine
 10
779.7272019818
 20
-318.4649520218
 30
0.0
 11
649.6499938499
 21
-243.3729781449
 31
0.0
  0
LINE
  5
A5
330
1F
100
AcDbEntity
  8
0
  6
Continuous
 62
     7
370
    25
100
AcDbLine
 10
1022.2952675352
 20
-458.4965156101
 30
0.0
 11
1004.7454886248
 21
-448.3652438953
 31
0.0
  0
LINE
  5
A6
330
1F
100
AcDbEntity
  8
0
  6
Continuous
 62
     7
370
    25
100
AcDbLine
 10
537.1591364283
 20
-438.2339721805
 30
0.0
 11
909.8044101136
 21
-653.3575096458
 31
0.0
  0
LINE
  5
A7
330
1F
100
AcDbEntity
  8
0
  6
Continuous
 62
     7
370
    25
100
AcDbLine
 10
892.2180594033
 20
-513.3259460574
 30
0.0
 11
1019.820393801
 21
-439.6626863762
 31
0.0
  0
LINE
  5
A8
330
1F
100
AcDbEntity
  8
0
  6
Continuous
 62
     7
370
    25
100
AcDbLine
 10
907.3295363795
 20
-244.8016923406
 30
0.0
 11
779.7272019818
 21
-318.4649520218
 31
0.0
  0
LINE
  5
A9
330
1F
100
AcDbEntity
  8
0
  6
Continuous
 62
     7
370
    25
100
AcDbLine
 10
779.7272019818
 20
-318.4649520218
 30
0.0
 11
779.7272019818
 21
-540.2260852325
 31
0.0
  0
ELLIPSE
  5
AA
330
1F
100
AcDbEntity
  8
0
  6
Continuous
 62
     7
370
    25
100
AcDbEllipse
 10
779.7272019818
 20
-448.3652438953
 30
0.0
 11
159.0990257669732
 21
2.273736754432321E-13
 31
0.0
210
0.0
220
0.0
230
1.0
 40
0.5773815452
 41
4.712388980384697
 42
5.49770587972005
  0
LWPOLYLINE
  5
AB
330
1F
100
AcDbEntity
  8
0
  6
Continuous
 62
     7
370
    25
100
AcDbPolyline
 90
      113
 70
   128
 43
0.0
 10
672.9540780226
 20
-294.8805188727
 10
672.8289319236
 20
-289.8020857205
 10
672.4538873825
 20
-284.8841218082
 10
671.8301244282
 20
-280.1421008697
 10
670.9596056497
 20
-275.5909430573
 10
669.8450700211
 20
-271.2449679972
 10
668.490024284
 20
-267.1178497348
 10
666.8987319134
 20
-263.2225737111
 10
665.0761997039
 20
-259.5713959055
 10
663.0281620162
 20
-256.1758042742
 10
660.7610627344
 20
-253.0464826048
 10
658.2820349916
 20
-250.1932769009
 10
655.5988787264
 20
-247.6251644033
 10
652.7200361409
 20
-245.350225344
 10
649.6545651391
 20
-243.3756175229
 10
646.4121108268
 20
-241.7075537868
 10
643.0028751648
 20
-240.3512824813
 10
639.4375848699
 20
-239.3110709377
 10
635.7274576643
 20
-238.5901920464
 10
631.8841669809
 20
-238.190913959
 10
627.919805234
 20
-238.1144929521
 10
623.8468457723
 20
-238.3611694746
 10
619.6781036333
 20
-238.9301673908
 10
615.4266952218
 20
-239.8196964227
 10
611.1059970417
 20
-241.0269577829
 10
606.7296036079
 20
-242.5481529806
 10
602.3112846734
 20
-244.3784957728
 10
597.864941904
 20
-246.5122272239
 10
593.4045651391
 20
-248.9426338255
 10
588.9441883742
 20
-251.6620686192
 10
584.4978456048
 20
-254.661975257
 10
580.0795266703
 20
-257.9329149228
 10
575.7031332365
 20
-261.4645960303
 10
571.3824350564
 20
-265.2459066041
 10
567.131026645
 20
-269.2649492421
 10
562.9622845059
 20
-273.5090785495
 10
558.8893250442
 20
-277.964940925
 10
554.9249632973
 20
-282.6185165774
 10
551.0816726139
 20
-287.4551636358
 10
547.3715454083
 20
-292.4596642192
 10
543.8062551134
 20
-297.6162723173
 10
540.3970194514
 20
-302.9087633334
 10
537.1545651391
 20
-308.3204851325
 10
534.0890941373
 20
-313.8344104358
 10
531.2102515518
 20
-319.4331903944
 10
528.5270952866
 20
-325.099209175
 10
526.0480675438
 20
-330.8146393865
 10
523.780968262
 20
-336.5614981709
 10
521.7329305743
 20
-342.3217037842
 10
519.9103983648
 20
-348.0771324886
 10
518.3191059942
 20
-353.8096755761
 10
516.9640602571
 20
-359.5012963452
 10
515.8495246285
 20
-365.1340868514
 10
514.97900585
 20
-370.6903242517
 10
514.3552428957
 20
-376.1525265678
 10
513.9801983546
 20
-381.5035076902
 10
513.8550522556
 20
-386.7264314527
 10
513.9801983546
 20
-391.8048646049
 10
514.3552428957
 20
-396.7228285172
 10
514.97900585
 20
-401.4648494557
 10
515.8495246285
 20
-406.0160072681
 10
516.9640602571
 20
-410.3619823282
 10
518.3191059942
 20
-414.4891005906
 10
519.9103983648
 20
-418.3843766143
 10
521.7329305743
 20
-422.0355544199
 10
523.780968262
 20
-425.4311460512
 10
526.0480675438
 20
-428.5604677206
 10
528.5270952866
 20
-431.4136734245
 10
531.2102515518
 20
-433.9817859221
 10
534.0890941373
 20
-436.2567249814
 10
537.1545651391
 20
-438.2313328025
 10
540.3970194514
 20
-439.8993965386
 10
543.8062551134
 20
-441.2556678441
 10
547.3715454083
 20
-442.2958793877
 10
551.0816726139
 20
-443.016758279
 10
554.9249632973
 20
-443.4160363664
 10
558.8893250442
 20
-443.4924573732
 10
562.9622845059
 20
-443.2457808508
 10
567.131026645
 20
-442.6767829346
 10
571.3824350564
 20
-441.7872539027
 10
575.7031332365
 20
-440.5799925425
 10
580.0795266703
 20
-439.0587973448
 10
584.4978456048
 20
-437.2284545526
 10
588.9441883742
 20
-435.0947231014
 10
593.4045651391
 20
-432.6643164998
 10
597.864941904
 20
-429.9448817062
 10
602.3112846734
 20
-426.9449750684
 10
606.7296036079
 20
-423.6740354026
 10
611.1059970417
 20
-420.1423542951
 10
615.4266952218
 20
-416.3610437213
 10
619.6781036333
 20
-412.3420010832
 10
623.8468457723
 20
-408.0978717759
 10
627.919805234
 20
-403.6420094003
 10
631.8841669809
 20
-398.988433748
 10
635.7274576643
 20
-394.1517866896
 10
639.4375848699
 20
-389.1472861062
 10
643.0028751648
 20
-383.990678008
 10
646.4121108268
 20
-378.698186992
 10
649.6545651391
 20
-373.2864651929
 10
652.7200361409
 20
-367.7725398896
 10
655.5988787264
 20
-362.173759931
 10
658.2820349916
 20
-356.5077411504
 10
660.7610627344
 20
-350.7923109389
 10
663.0281620162
 20
-345.0454521545
 10
665.0761997039
 20
-339.2852465412
 10
666.8987319134
 20
-333.5298178368
 10
668.490024284
 20
-327.7972747493
 10
669.8450700211
 20
-322.1056539802
 10
670.9596056497
 20
-316.472863474
 10
671.8301244282
 20
-310.9166260737
 10
672.4538873825
 20
-305.4544237576
 10
672.8289319236
 20
-300.1034426352
 10
672.9540780226
 20
-294.8805188727
  0
LWPOLYLINE
  5
AC
330
1F
100
AcDbEntity
  8
0
  6
Continuous
 62
     7
370
    25
100
AcDbPolyline
 90
       16
 70
   128
 43
0.0
 10
1045.5993517079
 20
-510.0040563379
 10
1045.4742056089
 20
-504.9256231858
 10
1045.0991610678
 20
-500.0076592735
 10
1044.4753981135
 20
-495.265638335
 10
1043.604879335
 20
-490.7144805226
 10
1042.4903437065
 20
-486.3685054625
 10
1041.1352979693
 20
-482.2413872001
 10
1039.5440055987
 20
-478.3461111764
 10
1037.7214733892
 20
-474.6949333708
 10
1035.6734357015
 20
-471.2993417395
 10
1033.4063364197
 20
-468.1700200701
 10
1030.927308677
 20
-465.3168143662
 10
1028.2441524117
 20
-462.7487018686
 10
1025.3653098263
 20
-460.4737628092
 10
1022.2998388244
 20
-458.4991549882
 10
1022.2952675352
 20
-458.4965156101
  0
LWPOLYLINE
  5
AD
330
1F
100
AcDbEntity
  8
0
  6
Continuous
 62
     7
370
    25
100
AcDbPolyline
 90
       43
 70
   128
 43
0.0
 10
909.8044101136
 20
-653.3575096458
 10
913.0422931368
 20
-655.0229340039
 10
916.4515287987
 20
-656.3792053094
 10
920.0168190937
 20
-657.419416853
 10
923.7269462992
 20
-658.1402957443
 10
927.5702369826
 20
-658.5395738317
 10
931.5345987295
 20
-658.6159948385
 10
935.6075581912
 20
-658.3693183161
 10
939.7763003303
 20
-657.8003203999
 10
944.0277087417
 20
-656.910791368
 10
948.3484069218
 20
-655.7035300078
 10
952.7248003556
 20
-654.1823348101
 10
957.1431192901
 20
-652.3519920179
 10
961.5894620595
 20
-650.2182605667
 10
966.0498388244
 20
-647.7878539651
 10
970.5102155893
 20
-645.0684191714
 10
974.9565583587
 20
-642.0685125336
 10
979.3748772933
 20
-638.7975728678
 10
983.751270727
 20
-635.2658917604
 10
988.0719689071
 20
-631.4845811866
 10
992.3233773186
 20
-627.4655385485
 10
996.4921194576
 20
-623.2214092412
 10
1000.5650789193
 20
-618.7655468656
 10
1004.5294406662
 20
-614.1119712133
 10
1008.3727313496
 20
-609.2753241549
 10
1012.0828585552
 20
-604.2708235715
 10
1015.6481488501
 20
-599.1142154733
 10
1019.0573845121
 20
-593.8217244573
 10
1022.2998388244
 20
-588.4100026582
 10
1025.3653098263
 20
-582.8960773548
 10
1028.2441524117
 20
-577.2972973963
 10
1030.927308677
 20
-571.6312786156
 10
1033.4063364197
 20
-565.9158484042
 10
1035.6734357015
 20
-560.1689896198
 10
1037.7214733892
 20
-554.4087840065
 10
1039.5440055987
 20
-548.653355302
 10
1041.1352979693
 20
-542.9208122146
 10
1042.4903437065
 20
-537.2291914454
 10
1043.604879335
 20
-531.5964009393
 10
1044.4753981135
 20
-526.0401635389
 10
1045.0991610678
 20
-520.5779612229
 10
1045.4742056089
 20
-515.2269801005
 10
1045.5993517079
 20
-510.0040563379
  0
LWPOLYLINE
  5
AE
330
1F
100
AcDbEntity
  8
0
  6
Continuous
 62
     7
370
    25
100
AcDbPolyline
 90
      106
 70
   128
 43
0.0
 10
663.4788471547
 20
-300.3504532219
 10
663.3534232833
 20
-295.5835549192
 10
662.9776006539
 20
-290.9785321948
 10
662.352724614
 20
-286.5518698349
 10
661.4810320578
 20
-282.3194141418
 10
660.3656434182
 20
-278.2963162086
 10
659.0105514971
 20
-274.4969776815
 10
657.420607172
 20
-270.9349992065
 10
655.6015020308
 20
-267.6231317422
 10
653.5597479979
 20
-264.5732309143
 10
651.3026540227
 20
-261.7962145765
 10
648.838299916
 20
-259.3020237263
 10
646.1755074257
 20
-257.0995869198
 10
643.323808658
 20
-255.196788309
 10
640.2934119544
 20
-253.6004394192
 10
637.0951653484
 20
-252.3162547651
 10
633.7405177329
 20
-251.3488313944
 10
630.2414778758
 20
-250.7016324318
 10
626.6105714316
 20
-250.3769746816
 10
622.860796103
 20
-250.3760203341
 10
619.0055751124
 20
-250.6987728058
 10
615.0587091505
 20
-251.3440767266
 10
611.0343269731
 20
-252.3096220759
 10
606.9468348239
 20
-253.591952452
 10
602.8108648639
 20
-255.1864774449
 10
598.6412227921
 20
-257.087489069
 10
594.4528348451
 20
-259.288182196
 10
590.2606943645
 20
-261.7806789157
 10
586.0798081254
 20
-264.5560567368
 10
581.9251426154
 20
-267.6043805269
 10
577.8115704587
 20
-270.9147380781
 10
573.753817176
 20
-274.4752791694
 10
569.7664084709
 20
-278.2732579878
 10
565.8636182318
 20
-282.295078755
 10
562.0594174348
 20
-286.5263443962
 10
558.3674241313
 20
-290.9519080788
 10
554.8008546993
 20
-295.5559274333
 10
551.3724765316
 20
-300.3219212653
 10
548.0945623323
 20
-305.2328285539
 10
544.9788461836
 20
-310.2710695254
 10
542.0364815404
 20
-315.4186085849
 10
539.2780013048
 20
-320.6570188785
 10
536.7132801199
 20
-325.9675482569
 10
534.3514990219
 20
-331.3311864031
 10
532.2011125743
 20
-336.7287328848
 10
530.2698186024
 20
-342.1408658862
 10
528.5645306375
 20
-347.5482113759
 10
527.0913531677
 20
-352.9314124605
 10
525.8555597861
 20
-358.2711986772
 10
524.8615743124
 20
-363.5484549772
 10
524.1129549565
 20
-368.7442901526
 10
523.6123815814
 20
-373.8401044619
 10
523.3616461099
 20
-378.8176562126
 10
523.3616461099
 20
-383.6591270611
 10
523.6123815814
 20
-388.3471857984
 10
524.1129549565
 20
-392.8650503909
 10
524.8615743124
 20
-397.1965480559
 10
525.8555597861
 20
-401.3261731559
 10
527.0913531677
 20
-405.2391427049
 10
528.5645306375
 20
-408.9214492875
 10
530.2698186024
 20
-412.3599112017
 10
532.2011125743
 20
-415.5422196463
 10
534.3514990219
 20
-418.4569827831
 10
536.7132801199
 20
-421.0937665164
 10
539.2780013048
 20
-423.4431318448
 10
542.0364815404
 20
-425.4966686502
 10
544.9788461836
 20
-427.2470258038
 10
548.0945623323
 20
-428.6879374813
 10
551.3724765316
 20
-429.8142455929
 10
554.8008546993
 20
-430.6219182477
 10
558.3674241313
 20
-431.1080641874
 10
562.0594174348
 20
-431.2709431356
 10
565.8636182318
 20
-431.109972028
 10
569.7664084709
 20
-430.6257270993
 10
573.753817176
 20
-429.8199418208
 10
577.8115704587
 20
-428.6955006946
 10
581.9251426154
 20
-427.256428928
 10
586.0798081254
 20
-425.5078780246
 10
590.2606943645
 20
-423.4561073428
 10
594.4528348451
 20
-421.108461689
 10
598.6412227921
 20
-418.4733450254
 10
602.8108648639
 20
-415.5601903859
 10
606.9468348239
 20
-412.3794261078
 10
611.0343269731
 20
-408.9424385019
 10
615.0587091505
 20
-405.2615310917
 10
619.0055751124
 20
-401.3498805704
 10
622.860796103
 20
-397.2214896317
 10
626.6105714316
 20
-392.8911368437
 10
630.2414778758
 20
-388.3743237454
 10
633.7405177329
 20
-383.6872193556
 10
637.0951653484
 20
-378.8466022913
 10
640.2934119544
 20
-373.8698007056
 10
643.323808658
 20
-368.7746302562
 10
646.1755074257
 20
-363.5793303311
 10
648.838299916
 20
-358.3024987557
 10
651.3026540227
 20
-352.9630252174
 10
653.5597479979
 20
-347.5800236458
 10
655.6015020308
 20
-342.1727637893
 10
657.420607172
 20
-336.7606022349
 10
659.0105514971
 20
-331.3629131164
 10
660.3656434182
 20
-325.9990187598
 10
661.4810320578
 20
-320.6881205149
 10
662.352724614
 20
-315.4492300189
 10
662.9776006539
 20
-310.3011011402
 10
663.3534232833
 20
-305.2621628441
 10
663.4788471547
 20
-300.3504532219
  0
LWPOLYLINE
  5
AF
330
1F
100
AcDbEntity
  8
0
  6
Continuous
 62
     7
370
    25
100
AcDbPolyline
 90
      113
 70
   128
 43
0.0
 10
1043.1244779737
 20
-388.1551456484
 10
1042.9993318747
 20
-382.9322218859
 10
1042.6242873336
 20
-377.5812407635
 10
1042.0005243793
 20
-372.1190384474
 10
1041.1300056008
 20
-366.5628010471
 10
1040.0154699723
 20
-360.9300105409
 10
1038.6604242351
 20
-355.2383897718
 10
1037.0691318646
 20
-349.5058466843
 10
1035.2465996551
 20
-343.7504179799
 10
1033.1985619673
 20
-337.9902123665
 10
1030.9314626855
 20
-332.2433535822
 10
1028.4524349428
 20
-326.5279233707
 10
1025.7692786776
 20
-320.8619045901
 10
1022.8904360921
 20
-315.2631246315
 10
1019.8249650903
 20
-309.7491993282
 10
1016.5825107779
 20
-304.3374775291
 10
1013.1732751159
 20
-299.044986513
 10
1009.607984821
 20
-293.8883784149
 10
1005.8978576154
 20
-288.8838778315
 10
1002.054566932
 20
-284.0472307731
 10
998.0902051851
 20
-279.3936551207
 10
994.0172457235
 20
-274.9377927451
 10
989.8485035844
 20
-270.6936634378
 10
985.597095173
 20
-266.6746207998
 10
981.2763969929
 20
-262.893310226
 10
976.9000035591
 20
-259.3616291185
 10
972.4816846245
 20
-256.0906894527
 10
968.0353418551
 20
-253.0907828149
 10
963.5749650903
 20
-250.3713480212
 10
959.1145883254
 20
-247.9409414196
 10
954.668245556
 20
-245.8072099685
 10
950.2499266214
 20
-243.9768671763
 10
945.8735331877
 20
-242.4556719786
 10
941.5528350076
 20
-241.2484106184
 10
937.3014265961
 20
-240.3588815865
 10
933.132684457
 20
-239.7898836703
 10
929.0597249954
 20
-239.5432071478
 10
925.0953632485
 20
-239.6196281547
 10
921.2520725651
 20
-240.018906242
 10
917.5419453595
 20
-240.7397851334
 10
913.9766550646
 20
-241.779996677
 10
910.5674194026
 20
-243.1362679825
 10
907.3249650903
 20
-244.8043317186
 10
904.2594940884
 20
-246.7789395396
 10
901.380651503
 20
-249.053878599
 10
898.6974952377
 20
-251.6219910966
 10
896.218467495
 20
-254.4751968005
 10
893.9513682132
 20
-257.6045184699
 10
891.9033305254
 20
-261.0001101012
 10
890.080798316
 20
-264.6512879068
 10
888.4895059454
 20
-268.5465639305
 10
887.1344602082
 20
-272.6736821929
 10
886.0199245797
 20
-277.019657253
 10
885.1494058012
 20
-281.5708150654
 10
884.5256428469
 20
-286.3128360039
 10
884.1505983058
 20
-291.2307999162
 10
884.0254522068
 20
-296.3092330684
 10
884.1505983058
 20
-301.5321568309
 10
884.5256428469
 20
-306.8831379533
 10
885.1494058012
 20
-312.3453402693
 10
886.0199245797
 20
-317.9015776697
 10
887.1344602082
 20
-323.5343681759
 10
888.4895059454
 20
-329.225988945
 10
890.080798316
 20
-334.9585320325
 10
891.9033305254
 20
-340.7139607369
 10
893.9513682132
 20
-346.4741663502
 10
896.218467495
 20
-352.2210251346
 10
898.6974952377
 20
-357.936455346
 10
901.380651503
 20
-363.6024741267
 10
904.2594940884
 20
-369.2012540852
 10
907.3249650903
 20
-374.7151793886
 10
910.5674194026
 20
-380.1269011877
 10
913.9766550646
 20
-385.4193922037
 10
917.5419453595
 20
-390.5760003019
 10
921.2520725651
 20
-395.5805008853
 10
925.0953632485
 20
-400.4171479437
 10
929.0597249954
 20
-405.070723596
 10
933.132684457
 20
-409.5265859716
 10
937.3014265961
 20
-413.7707152789
 10
941.5528350076
 20
-417.789757917
 10
945.8735331877
 20
-421.5710684908
 10
950.2499266214
 20
-425.1027495982
 10
954.668245556
 20
-428.373689264
 10
959.1145883254
 20
-431.3735959018
 10
963.5749650903
 20
-434.0930306955
 10
968.0353418551
 20
-436.5234372971
 10
972.4816846245
 20
-438.6571687483
 10
976.9000035591
 20
-440.4875115405
 10
981.2763969929
 20
-442.0087067382
 10
985.597095173
 20
-443.2159680984
 10
989.8485035844
 20
-444.1054971303
 10
994.0172457235
 20
-444.6744950465
 10
998.0902051851
 20
-444.9211715689
 10
1002.054566932
 20
-444.8447505621
 10
1005.8978576154
 20
-444.4454724747
 10
1009.607984821
 20
-443.7245935834
 10
1013.1732751159
 20
-442.6843820398
 10
1016.5825107779
 20
-441.3281107343
 10
1019.8249650903
 20
-439.6600469982
 10
1022.8904360921
 20
-437.6854391771
 10
1025.7692786776
 20
-435.4105001178
 10
1028.4524349428
 20
-432.8423876202
 10
1030.9314626855
 20
-429.9891819163
 10
1033.1985619673
 20
-426.8598602469
 10
1035.2465996551
 20
-423.4642686156
 10
1037.0691318646
 20
-419.81309081
 10
1038.6604242351
 20
-415.9178147863
 10
1040.0154699723
 20
-411.7906965239
 10
1041.1300056008
 20
-407.4447214638
 10
1042.0005243793
 20
-402.8935636514
 10
1042.6242873336
 20
-398.1515427129
 10
1042.9993318747
 20
-393.2335788006
 10
1043.1244779737
 20
-388.1551456484
  0
LWPOLYLINE
  5
B0
330
1F
100
AcDbEntity
  8
0
  6
Continuous
 62
     7
370
    25
100
AcDbPolyline
 90
      106
 70
   128
 43
0.0
 10
1033.6492471058
 20
-382.6852112992
 10
1033.5238232344
 20
-377.773501677
 10
1033.148000605
 20
-372.7345633808
 10
1032.5231245652
 20
-367.5864345022
 10
1031.6514320089
 20
-362.3475440062
 10
1030.5360433693
 20
-357.0366457613
 10
1029.1809514483
 20
-351.6727514047
 10
1027.5910071232
 20
-346.2750622861
 10
1025.771901982
 20
-340.8629007318
 10
1023.7301479491
 20
-335.4556408753
 10
1021.4730539739
 20
-330.0726393037
 10
1019.0086998671
 20
-324.7331657654
 10
1016.3459073769
 20
-319.4563341899
 10
1013.4942086092
 20
-314.2610342649
 10
1010.4638119055
 20
-309.1658638155
 10
1007.2655652996
 20
-304.1890622297
 10
1003.9109176841
 20
-299.3484451655
 10
1000.411877827
 20
-294.6613407757
 10
996.7809713827
 20
-290.1445276774
 10
993.0311960541
 20
-285.8141748894
 10
989.1759750636
 20
-281.6857839507
 10
985.2291091017
 20
-277.7741334294
 10
981.2047269243
 20
-274.0932260192
 10
977.117234775
 20
-270.6562384132
 10
972.981264815
 20
-267.4754741352
 10
968.8116227433
 20
-264.5623194956
 10
964.6232347962
 20
-261.9272028321
 10
960.4310943157
 20
-259.5795571783
 10
956.2502080766
 20
-257.5277864965
 10
952.0955425666
 20
-255.779235593
 10
947.9819704098
 20
-254.3401638265
 10
943.9242171271
 20
-253.2157227003
 10
939.9368084221
 20
-252.4099374217
 10
936.034018183
 20
-251.9256924931
 10
932.2298173859
 20
-251.7647213855
 10
928.5378240825
 20
-251.9276003337
 10
924.9712546504
 20
-252.4137462734
 10
921.5428764828
 20
-253.2214189282
 10
918.2649622835
 20
-254.3477270397
 10
915.1492461347
 20
-255.7886387172
 10
912.2068814916
 20
-257.5389958709
 10
909.4484012559
 20
-259.5925326763
 10
906.883680071
 20
-261.9418980047
 10
904.5218989731
 20
-264.578681738
 10
902.3715125255
 20
-267.4934448747
 10
900.4402185536
 20
-270.6757533194
 10
898.7349305886
 20
-274.1142152336
 10
897.2617531188
 20
-277.7965218161
 10
896.0259597373
 20
-281.7094913651
 10
895.0319742636
 20
-285.8391164652
 10
894.2833549077
 20
-290.1706141302
 10
893.7827815326
 20
-294.6884787227
 10
893.5320460611
 20
-299.37653746
 10
893.5320460611
 20
-304.2180083085
 10
893.7827815326
 20
-309.1955600591
 10
894.2833549077
 20
-314.2913743685
 10
895.0319742636
 20
-319.4872095439
 10
896.0259597373
 20
-324.7644658439
 10
897.2617531188
 20
-330.1042520606
 10
898.7349305886
 20
-335.4874531452
 10
900.4402185536
 20
-340.8947986349
 10
902.3715125255
 20
-346.3069316363
 10
904.5218989731
 20
-351.7044781179
 10
906.883680071
 20
-357.0681162642
 10
909.4484012559
 20
-362.3786456425
 10
912.2068814916
 20
-367.6170559361
 10
915.1492461347
 20
-372.7645949956
 10
918.2649622835
 20
-377.8028359672
 10
921.5428764828
 20
-382.7137432558
 10
924.9712546505
 20
-387.4797370878
 10
928.5378240825
 20
-392.0837564423
 10
932.2298173859
 20
-396.5093201248
 10
936.034018183
 20
-400.7405857661
 10
939.9368084221
 20
-404.7624065332
 10
943.9242171271
 20
-408.5603853517
 10
947.9819704098
 20
-412.120926443
 10
952.0955425666
 20
-415.4312839942
 10
956.2502080766
 20
-418.4796077843
 10
960.4310943157
 20
-421.2549856054
 10
964.6232347962
 20
-423.7474823251
 10
968.8116227433
 20
-425.9481754521
 10
972.981264815
 20
-427.8491870762
 10
977.117234775
 20
-429.4437120691
 10
981.2047269243
 20
-430.7260424451
 10
985.2291091017
 20
-431.6915877944
 10
989.1759750636
 20
-432.3368917152
 10
993.0311960541
 20
-432.6596441869
 10
996.7809713827
 20
-432.6586898395
 10
1000.411877827
 20
-432.3340320892
 10
1003.9109176841
 20
-431.6868331266
 10
1007.2655652996
 20
-430.719409756
 10
1010.4638119055
 20
-429.4352251019
 10
1013.4942086092
 20
-427.8388762121
 10
1016.3459073769
 20
-425.9360776013
 10
1019.0086998671
 20
-423.7336407948
 10
1021.4730539739
 20
-421.2394499446
 10
1023.7301479491
 20
-418.4624336067
 10
1025.771901982
 20
-415.4125327789
 10
1027.5910071232
 20
-412.1006653145
 10
1029.1809514483
 20
-408.5386868396
 10
1030.5360433693
 20
-404.7393483125
 10
1031.6514320089
 20
-400.7162503792
 10
1032.5231245652
 20
-396.4837946862
 10
1033.148000605
 20
-392.0571323263
 10
1033.5238232344
 20
-387.4521096019
 10
1033.6492471058
 20
-382.6852112992
  0
LINE
  5
B1
330
1F
100
AcDbEntity
  8
0
  6
Continuous
 62
     7
370
    25
100
AcDbLine
 10
-513.1322967646
 20
226.7093166849
 30
0.0
 11
-776.6322967646
 21
226.7093166849
 31
0.0
  0
LINE
  5
B2
330
1F
100
AcDbEntity
  8
0
  6
Continuous
 62
     7
370
    25
100
AcDbLine
 10
-249.6322967646
 20
226.7093166849
 30
0.0
 11
-513.1322967646
 21
226.7093166849
 31
0.0
  0
LINE
  5
B3
330
1F
100
AcDbEntity
  8
0
  6
Continuous
 62
     7
370
    25
100
AcDbLine
 10
-513.1322967646
 20
1.7093166849
 30
0.0
 11
-249.6322967646
 21
1.7093166849
 31
0.0
  0
LINE
  5
B4
330
1F
100
AcDbEntity
  8
0
  6
Continuous
 62
     7
370
    25
100
AcDbLine
 10
-776.6322967646
 20
1.7093166849
 30
0.0
 11
-513.1322967646
 21
1.7093166849
 31
0.0
  0
CIRCLE
  5
B5
330
1F
100
AcDbEntity
  8
0
  6
Continuous
 62
     7
370
    25
100
AcDbCircle
 10
-513.1322967646
 20
114.2093166849
 30
0.0
 40
99.10000000000002
  0
CIRCLE
  5
B6
330
1F
100
AcDbEntity
  8
0
  6
Continuous
 62
     7
370
    25
100
AcDbCircle
 10
-513.1322967646
 20
114.2093166849
 30
0.0
 40
112.5000000000001
  0
LINE
  5
B7
330
1F
100
AcDbEntity
  8
0
  6
Continuous
 62
     7
370
    25
100
AcDbLine
 10
-776.6322967646
 20
114.2093166849
 30
0.0
 11
-776.6322967646
 21
226.7093166849
 31
0.0
  0
LINE
  5
B8
330
1F
100
AcDbEntity
  8
0
  6
Continuous
 62
     7
370
    25
100
AcDbLine
 10
-776.6322967646
 20
1.7093166849
 30
0.0
 11
-776.6322967646
 21
114.2093166849
 31
0.0
  0
LINE
  5
B9
330
1F
100
AcDbEntity
  8
0
  6
Continuous
 62
     7
370
    25
100
AcDbLine
 10
-249.6322967646
 20
114.2093166849
 30
0.0
 11
-249.6322967646
 21
226.7093166849
 31
0.0
  0
LINE
  5
BA
330
1F
100
AcDbEntity
  8
0
  6
Continuous
 62
     7
370
    25
100
AcDbLine
 10
-249.6322967646
 20
1.7093166849
 30
0.0
 11
-249.6322967646
 21
114.2093166849
 31
0.0
  0
INSERT
  5
C6
330
1F
100
AcDbEntity
  8
FORMAT
100
AcDbBlockReference
  2
SW_CENTERMARKSYMBOL_1
 10
-513.1322967646
 20
114.2093166849
 30
0.0
  0
LINE
  5
C7
330
1F
100
AcDbEntity
  8
0
  6
Continuous
 62
     7
370
    25
100
AcDbLine
 10
-51.1446914215
 20
-261.1346618665
 30
0.0
 11
-51.1446914215
 21
-788.1346618665
 31
0.0
  0
LINE
  5
C8
330
1F
100
AcDbEntity
  8
0
  6
Continuous
 62
     7
370
    25
100
AcDbLine
 10
173.8553085785
 20
-412.1346618665
 30
0.0
 11
173.8553085785
 21
-261.1346618665
 31
0.0
  0
LINE
  5
C9
330
1F
100
AcDbEntity
  8
0
  6
Continuous
 62
     7
370
    25
100
AcDbLine
 10
173.8553085785
 20
-788.1346618665
 30
0.0
 11
173.8553085785
 21
-637.1346618665
 31
0.0
  0
LINE
  5
CA
330
1F
100
AcDbEntity
  8
0
  6
Continuous
 62
     7
370
    25
100
AcDbLine
 10
173.8553085785
 20
-637.1346618665
 30
0.0
 11
321.3553085785
 21
-637.1346618665
 31
0.0
  0
LINE
  5
CB
330
1F
100
AcDbEntity
  8
0
  6
Continuous
 62
     7
370
    25
100
AcDbLine
 10
321.3553085785
 20
-412.1346618665
 30
0.0
 11
173.8553085785
 21
-412.1346618665
 31
0.0
  0
LINE
  5
CC
330
1F
100
AcDbEntity
  8
0
  6
Continuous
 62
     7
370
    25
100
AcDbLine
 10
61.3553085785
 20
-524.6346618665
 30
0.0
 11
173.8553085785
 21
-637.1346618665
 31
0.0
  0
LINE
  5
CD
330
1F
100
AcDbEntity
  8
0
  6
Continuous
 62
     7
370
    25
100
AcDbLine
 10
173.8553085785
 20
-412.1346618665
 30
0.0
 11
61.3553085785
 21
-524.6346618665
 31
0.0
  0
LINE
  5
CE
330
1F
100
AcDbEntity
  8
0
  6
Continuous
 62
     7
370
    25
100
AcDbLine
 10
173.8553085785
 20
-788.1346618665
 30
0.0
 11
-51.1446914215
 21
-788.1346618665
 31
0.0
  0
LINE
  5
CF
330
1F
100
AcDbEntity
  8
0
  6
Continuous
 62
     7
370
    25
100
AcDbLine
 10
173.8553085785
 20
-261.1346618665
 30
0.0
 11
-51.1446914215
 21
-261.1346618665
 31
0.0
  0
LINE
  5
D0
330
1F
100
AcDbEntity
  8
0
  6
Continuous
 62
     7
370
    25
100
AcDbLine
 10
321.3553085785
 20
-412.1346618665
 30
0.0
 11
321.3553085785
 21
-637.1346618665
 31
0.0
  0
ENDSEC
  0
SECTION
  2
OBJECTS
  0
DICTIONARY
  5
C
330
0
100
AcDbDictionary
281
     1
  3
ACAD_GROUP
350
D
  3
ACAD_LAYOUT
350
1A
  3
ACAD_MLINESTYLE
350
17
  3
ACAD_PLOTSETTINGS
350
19
  3
ACAD_PLOTSTYLENAME
350
E
  3
ACAD_SCALELIST
350
47
  3
DWGPROPS
350
D1
  0
DICTIONARY
  5
D
102
{ACAD_REACTORS
330
C
102
}
330
C
100
AcDbDictionary
281
     1
  0
DICTIONARY
  5
1A
102
{ACAD_REACTORS
330
C
102
}
330
C
100
AcDbDictionary
281
     1
  3
Layout1
350
1E
  3
Layout2
350
26
  3
Model
350
22
  0
DICTIONARY
  5
17
102
{ACAD_REACTORS
330
C
102
}
330
C
100
AcDbDictionary
281
     1
  3
Standard
350
18
  0
DICTIONARY
  5
19
102
{ACAD_REACTORS
330
C
102
}
330
C
100
AcDbDictionary
281
     1
  0
ACDBDICTIONARYWDFLT
  5
E
102
{ACAD_REACTORS
330
C
102
}
330
C
100
AcDbDictionary
281
     1
  3
Normal
350
F
100
AcDbDictionaryWithDefault
340
F
  0
DICTIONARY
  5
47
102
{ACAD_REACTORS
330
C
102
}
330
C
100
AcDbDictionary
281
     1
  3
A0
350
48
  3
A1
350
49
  3
A2
350
4A
  3
A3
350
4B
  3
A4
350
4C
  3
A5
350
4D
  3
A6
350
4E
  3
A7
350
4F
  3
A8
350
50
  3
A9
350
51
  3
B0
350
52
  3
B1
350
53
  3
B2
350
54
  3
B3
350
55
  3
B4
350
56
  3
B5
350
57
  3
B6
350
58
  3
B7
350
59
  3
B8
350
5A
  3
B9
350
5B
  3
C0
350
5C
  3
C1
350
5D
  3
C2
350
5E
  3
C3
350
5F
  3
C4
350
60
  3
C5
350
61
  3
C6
350
62
  3
C7
350
63
  3
C8
350
64
  3
C9
350
65
  3
D0
350
66
  3
D1
350
67
  3
D2
350
68
  0
XRECORD
  5
D1
102
{ACAD_REACTORS
330
C
102
}
330
C
100
AcDbXrecord
280
     1
  1
DWGPROPS COOKIE
  2

  3

  4

  6

  7

  8
b.kav
  9

300
=
301
=
302
=
303
=
304
=
305
=
306
=
307
=
308
=
309
=
 40
0.0
 41
2459935.575565012
 42
2459935.575565185
  1

 90
        0
  0
LAYOUT
  5
1E
102
{ACAD_REACTORS
330
1A
102
}
330
1A
100
AcDbPlotSettings
  1

  2
none_device
  4

  6

 40
0.0
 41
0.0
 42
0.0
 43
0.0
 44
0.0
 45
0.0
 46
0.0
 47
0.0
 48
0.0
 49
0.0
140
0.0
141
0.0
142
1.0
143
1.0
 70
   688
 72
     1
 73
     0
 74
     5
  7

 75
    16
147
1.0
148
0.0
149
0.0
100
AcDbLayout
  1
Layout1
 70
     1
 71
     1
 10
0.0
 20
0.0
 11
420.0
 21
297.0
 12
0.0
 22
0.0
 32
0.0
 14
1.0000000000E+20
 24
1.0000000000E+20
 34
1.0000000000E+20
 15
-1.0000000000E+20
 25
-1.0000000000E+20
 35
-1.0000000000E+20
146
0.0
 13
0.0
 23
0.0
 33
0.0
 16
1.0
 26
0.0
 36
0.0
 17
0.0
 27
1.0
 37
0.0
 76
     0
330
1B
  0
LAYOUT
  5
26
102
{ACAD_REACTORS
330
1A
102
}
330
1A
100
AcDbPlotSettings
  1

  2
none_device
  4

  6

 40
0.0
 41
0.0
 42
0.0
 43
0.0
 44
0.0
 45
0.0
 46
0.0
 47
0.0
 48
0.0
 49
0.0
140
0.0
141
0.0
142
1.0
143
1.0
 70
   688
 72
     1
 73
     0
 74
     5
  7

 75
    16
147
1.0
148
0.0
149
0.0
100
AcDbLayout
  1
Layout2
 70
     1
 71
     2
 10
0.0
 20
0.0
 11
0.0
 21
0.0
 12
0.0
 22
0.0
 32
0.0
 14
0.0
 24
0.0
 34
0.0
 15
0.0
 25
0.0
 35
0.0
146
0.0
 13
0.0
 23
0.0
 33
0.0
 16
1.0
 26
0.0
 36
0.0
 17
0.0
 27
1.0
 37
0.0
 76
     0
330
23
  0
LAYOUT
  5
22
102
{ACAD_REACTORS
330
1A
102
}
330
1A
100
AcDbPlotSettings
  1

  2
none_device
  4
Letter_(8.50_x_11.00_Inches)
  6

 40
6.35
 41
6.35
 42
6.35000508
 43
6.35000508
 44
215.9
 45
279.4
 46
0.0
 47
0.0
 48
0.0
 49
0.0
140
0.0
141
0.0
142
1.0
143
1.0
 70
  1712
 72
     1
 73
     0
 74
     0
  7

 75
     0
147
1.0
148
0.0
149
0.0
100
AcDbLayout
  1
Model
 70
     1
 71
     0
 10
0.0
 20
0.0
 11
279.4
 21
215.9
 12
0.0
 22
0.0
 32
0.0
 14
0.0
 24
0.0
 34
0.0
 15
279.4
 25
215.9
 35
0.0
146
0.0
 13
0.0
 23
0.0
 33
0.0
 16
1.0
 26
0.0
 36
0.0
 17
0.0
 27
1.0
 37
0.0
 76
     0
330
1F
331
29
  0
MLINESTYLE
  5
18
102
{ACAD_REACTORS
330
17
102
}
330
17
100
AcDbMlineStyle
  2
Standard
 70
     0
  3

 62
   256
 51
90.0
 52
90.0
 71
     2
 49
0.5
 62
   256
  6
BYLAYER
 49
-0.5
 62
   256
  6
BYLAYER
  0
ACDBPLACEHOLDER
  5
F
102
{ACAD_REACTORS
330
E
102
}
330
E
  0
SCALE
  5
48
102
{ACAD_REACTORS
330
47
102
}
330
47
100
AcDbScale
 70
     0
300
1:1
140
1.0
141
1.0
290
     1
  0
SCALE
  5
49
102
{ACAD_REACTORS
330
47
102
}
330
47
100
AcDbScale
 70
     0
300
1:2
140
1.0
141
2.0
290
     0
  0
SCALE
  5
4A
102
{ACAD_REACTORS
330
47
102
}
330
47
100
AcDbScale
 70
     0
300
1:4
140
1.0
141
4.0
290
     0
  0
SCALE
  5
4B
102
{ACAD_REACTORS
330
47
102
}
330
47
100
AcDbScale
 70
     0
300
1:5
140
1.0
141
5.0
290
     0
  0
SCALE
  5
4C
102
{ACAD_REACTORS
330
47
102
}
330
47
100
AcDbScale
 70
     0
300
1:8
140
1.0
141
8.0
290
     0
  0
SCALE
  5
4D
102
{ACAD_REACTORS
330
47
102
}
330
47
100
AcDbScale
 70
     0
300
1:10
140
1.0
141
10.0
290
     0
  0
SCALE
  5
4E
102
{ACAD_REACTORS
330
47
102
}
330
47
100
AcDbScale
 70
     0
300
1:16
140
1.0
141
16.0
290
     0
  0
SCALE
  5
4F
102
{ACAD_REACTORS
330
47
102
}
330
47
100
AcDbScale
 70
     0
300
1:20
140
1.0
141
20.0
290
     0
  0
SCALE
  5
50
102
{ACAD_REACTORS
330
47
102
}
330
47
100
AcDbScale
 70
     0
300
1:30
140
1.0
141
30.0
290
     0
  0
SCALE
  5
51
102
{ACAD_REACTORS
330
47
102
}
330
47
100
AcDbScale
 70
     0
300
1:40
140
1.0
141
40.0
290
     0
  0
SCALE
  5
52
102
{ACAD_REACTORS
330
47
102
}
330
47
100
AcDbScale
 70
     0
300
1:50
140
1.0
141
50.0
290
     0
  0
SCALE
  5
53
102
{ACAD_REACTORS
330
47
102
}
330
47
100
AcDbScale
 70
     0
300
1:100
140
1.0
141
100.0
290
     0
  0
SCALE
  5
54
102
{ACAD_REACTORS
330
47
102
}
330
47
100
AcDbScale
 70
     0
300
2:1
140
2.0
141
1.0
290
     0
  0
SCALE
  5
55
102
{ACAD_REACTORS
330
47
102
}
330
47
100
AcDbScale
 70
     0
300
4:1
140
4.0
141
1.0
290
     0
  0
SCALE
  5
56
102
{ACAD_REACTORS
330
47
102
}
330
47
100
AcDbScale
 70
     0
300
8:1
140
8.0
141
1.0
290
     0
  0
SCALE
  5
57
102
{ACAD_REACTORS
330
47
102
}
330
47
100
AcDbScale
 70
     0
300
10:1
140
10.0
141
1.0
290
     0
  0
SCALE
  5
58
102
{ACAD_REACTORS
330
47
102
}
330
47
100
AcDbScale
 70
     0
300
100:1
140
100.0
141
1.0
290
     0
  0
SCALE
  5
59
102
{ACAD_REACTORS
330
47
102
}
330
47
100
AcDbScale
 70
     0
300
1/128" = 1'-0"
140
0.0078125
141
12.0
290
     0
  0
SCALE
  5
5A
102
{ACAD_REACTORS
330
47
102
}
330
47
100
AcDbScale
 70
     0
300
1/64" = 1'-0"
140
0.015625
141
12.0
290
     0
  0
SCALE
  5
5B
102
{ACAD_REACTORS
330
47
102
}
330
47
100
AcDbScale
 70
     0
300
1/32" = 1'-0"
140
0.03125
141
12.0
290
     0
  0
SCALE
  5
5C
102
{ACAD_REACTORS
330
47
102
}
330
47
100
AcDbScale
 70
     0
300
1/16" = 1'-0"
140
0.0625
141
12.0
290
     0
  0
SCALE
  5
5D
102
{ACAD_REACTORS
330
47
102
}
330
47
100
AcDbScale
 70
     0
300
3/32" = 1'-0"
140
0.09375
141
12.0
290
     0
  0
SCALE
  5
5E
102
{ACAD_REACTORS
330
47
102
}
330
47
100
AcDbScale
 70
     0
300
1/8" = 1'-0"
140
0.125
141
12.0
290
     0
  0
SCALE
  5
5F
102
{ACAD_REACTORS
330
47
102
}
330
47
100
AcDbScale
 70
     0
300
3/16" = 1'-0"
140
0.1875
141
12.0
290
     0
  0
SCALE
  5
60
102
{ACAD_REACTORS
330
47
102
}
330
47
100
AcDbScale
 70
     0
300
1/4" = 1'-0"
140
0.25
141
12.0
290
     0
  0
SCALE
  5
61
102
{ACAD_REACTORS
330
47
102
}
330
47
100
AcDbScale
 70
     0
300
3/8" = 1'-0"
140
0.375
141
12.0
290
     0
  0
SCALE
  5
62
102
{ACAD_REACTORS
330
47
102
}
330
47
100
AcDbScale
 70
     0
300
1/2" = 1'-0"
140
0.5
141
12.0
290
     0
  0
SCALE
  5
63
102
{ACAD_REACTORS
330
47
102
}
330
47
100
AcDbScale
 70
     0
300
3/4" = 1'-0"
140
0.75
141
12.0
290
     0
  0
SCALE
  5
64
102
{ACAD_REACTORS
330
47
102
}
330
47
100
AcDbScale
 70
     0
300
1" = 1'-0"
140
1.0
141
12.0
290
     0
  0
SCALE
  5
65
102
{ACAD_REACTORS
330
47
102
}
330
47
100
AcDbScale
 70
     0
300
1-1/2" = 1'-0"
140
1.5
141
12.0
290
     0
  0
SCALE
  5
66
102
{ACAD_REACTORS
330
47
102
}
330
47
100
AcDbScale
 70
     0
300
3" = 1'-0"
140
3.0
141
12.0
290
     0
  0
SCALE
  5
67
102
{ACAD_REACTORS
330
47
102
}
330
47
100
AcDbScale
 70
     0
300
6" = 1'-0"
140
6.0
141
12.0
290
     0
  0
SCALE
  5
68
102
{ACAD_REACTORS
330
47
102
}
330
47
100
AcDbScale
 70
     0
300
1'-0" = 1'-0"
140
12.0
141
12.0
290
     0
  0
ENDSEC
  0
EOF
